Bachman Turner Overdrive - Gimme Your Money Please Guitar tab download free or play online

Guitar tab for Gimme Your Money Please by Bachman Turner Overdrive free download and read or play online: file .txt, 3.8 kb has 198 views and 1 downloads.

Download guitar tab "Gimme Your Money Please" (Bachman Turner Overdrive)

Bachman Turner Overdrive Band name
Gimme Your Money Please Song name
Guitar tabs Tab type
3.8 kb File size
.TXT File type
198 views
1 downloads
 
Are you robot?

Gimme Your Money Please guitar tab read and play online

                    



Bachman Turner Overdrive --- Gimme Your Money Please     (CANADIAN)



Tabbed by math



Standard Tuning (EADG)



Intro

G|----------------------------------|

D|-----2-2-------------2-2----------|

A|-0-0-----2-2-2-2-0-0-----2-2-2-2--|

E|----------------------------------|



G|------------------------------------------|

D|-----2-2-------------2-2-------------1-01-|

A|-0-0-----2-2-2-2-0-0-----2~------2-4------|

E|------------------------------------------|



Verse

G|----------------------------------|

D|-22222222--------22222222---------|

A|---------22222222--------22222222-|

E|----------------------------------|



G|----------------------------------|

D|-22222222------------2222---------|

A|---------222222220000----22222222-|

E|----------------------------------|



G|----------------------------------|

D|-22222222----------------22222222-|

A|---------2222222200000000---------|

E|----------------------------------|



G|--------------------------|

D|---------22222222---------|

A|-22222222--------22222222-|

E|--------------------------|



Chorus

G|----------------------------------|

D|-----2222------------2222---------|

A|-0000----222222220000----22222222-|

E|----------------------------------|



G|----------------------------------|

D|---------22222222-----------------|

A|-00000000--------2222222200000000-|

E|----------------------------------|



G|----------------------------------|

D|-22222222------------2222---------|

A|---------222222220000----22222222-|

E|----------------------------------|



G|--------------------------|

D|-----2222------------1-01-|

A|-0000----2~------2-4------|

E|--------------------------|



Verse



Chorus 2

G|----------------------------------|

D|-----2222------------2222---------|

A|-0000----222222220000----22222222-|

E|----------------------------------|



G|----------------------------------|

D|---------22222222-----------------|

A|-00000000--------2222222200000000-|

E|----------------------------------|



G|----------------------------------|

D|-22222222------------2222---------|

A|---------222222220000----22222222-|

E|----------------------------------|



G|------------------|

D|-----2222---------|

A|-0000----22222222-|

E|------------------|



Guitar Solo

G|----------------------------------|

D|-----2222------------2222---------|

A|-0000----222222220000----22222222-| x4

E|----------------------------------|



G|------------------------------------------|

D|-----2222------------2222-----------------|

A|-0000----222222220000----2~---------------|

E|------------------------------------------|



Verse



Chorus 3

G|----------------------------------|

D|-----2222------------2222---------|

A|-0000----222222220000----22222222-|

E|----------------------------------|



G|----------------------------------|

D|---------22222222-----------------|

A|-00000000--------2222222200000000-|

E|----------------------------------|



G|----------------------------------|

D|-22222222------------2222---------|

A|---------222222220000----22222222-|

E|----------------------------------|



G|----------------------------------|

D|-----2222------------2222---------|

A|-0000----222222220000----22222222-|

E|----------------------------------|



G|------------------|

D|-----2222---------|

A|-0000----22222222-|

E|------------------|



Outro

G|----------------------------------|

D|-----2222------------2222---------|

A|-0000----222222220000----22222222-| x7

E|----------------------------------|



G|----------------------------------|

D|----------------------------------|

A|-0000---2~------------------------|

E|-----000--------------------------|



End on A|-2-|



                    

Comments for guitar tab — Gimme Your Money Please (Bachman Turner Overdrive)

Other Gimme Your Money Please by Bachman Turner Overdrive tabs:

Last viewed Bachman Turner Overdrive tabs: